  0
SECTION
  2
HEADER
  9
$ACADVER
  1
AC1015
  9
$ACADMAINTVER
 70
     6
  9
$DWGCODEPAGE
  3
ANSI_1254
  9
$INSBASE
 10
0.0
 20
0.0
 30
0.0
  9
$EXTMIN
 10
0.0
 20
0.0
 30
0.0
  9
$EXTMAX
 10
279.4
 20
215.9
 30
0.0
  9
$LIMMIN
 10
0.0
 20
0.0
  9
$LIMMAX
 10
279.4
 20
215.9
  9
$ORTHOMODE
 70
     0
  9
$REGENMODE
 70
     1
  9
$FILLMODE
 70
     1
  9
$QTEXTMODE
 70
     0
  9
$MIRRTEXT
 70
     1
  9
$LTSCALE
 40
1.0
  9
$ATTMODE
 70
     1
  9
$TEXTSIZE
 40
3.5
  9
$TRACEWID
 40
1.0
  9
$TEXTSTYLE
  7
Standard
  9
$CLAYER
  8
0
  9
$CELTYPE
  6
ByLayer
  9
$CECOLOR
 62
   256
  9
$CELTSCALE
 40
1.0
  9
$DISPSILH
 70
     0
  9
$DIMSCALE
 40
1.0
  9
$DIMASZ
 40
3.5
  9
$DIMEXO
 40
1.0
  9
$DIMDLI
 40
3.75
  9
$DIMRND
 40
0.0
  9
$DIMDLE
 40
0.0
  9
$DIMEXE
 40
1.0
  9
$DIMTP
 40
0.0
  9
$DIMTM
 40
0.0
  9
$DIMTXT
 40
3.5
  9
$DIMCEN
 40
2.5
  9
$DIMTSZ
 40
0.0
  9
$DIMTOL
 70
     0
  9
$DIMLIM
 70
     0
  9
$DIMTIH
 70
     1
  9
$DIMTOH
 70
     1
  9
$DIMSE1
 70
     0
  9
$DIMSE2
 70
     0
  9
$DIMTAD
 70
     1
  9
$DIMZIN
 70
     0
  9
$DIMBLK
  1

  9
$DIMASO
 70
     1
  9
$DIMSHO
 70
     1
  9
$DIMPOST
  1

  9
$DIMAPOST
  1

  9
$DIMALT
 70
     0
  9
$DIMALTD
 70
     3
  9
$DIMALTF
 40
0.0393700787
  9
$DIMLFAC
 40
1.0
  9
$DIMTOFL
 70
     1
  9
$DIMTVP
 40
0.0
  9
$DIMTIX
 70
     0
  9
$DIMSOXD
 70
     0
  9
$DIMSAH
 70
     0
  9
$DIMBLK1
  1

  9
$DIMBLK2
  1

  9
$DIMSTYLE
  2
ISO-25
  9
$DIMCLRD
 70
     0
  9
$DIMCLRE
 70
     0
  9
$DIMCLRT
 70
     0
  9
$DIMTFAC
 40
1.0
  9
$DIMGAP
 40
1.524
  9
$DIMJUST
 70
     0
  9
$DIMSD1
 70
     0
  9
$DIMSD2
 70
     0
  9
$DIMTOLJ
 70
     0
  9
$DIMTZIN
 70
     0
  9
$DIMALTZ
 70
     0
  9
$DIMALTTZ
 70
     0
  9
$DIMUPT
 70
     0
  9
$DIMDEC
 70
     2
  9
$DIMTDEC
 70
     2
  9
$DIMALTU
 70
     2
  9
$DIMALTTD
 70
     3
  9
$DIMTXSTY
  7
Standard
  9
$DIMAUNIT
 70
     0
  9
$DIMADEC
 70
     2
  9
$DIMALTRND
 40
0.0
  9
$DIMAZIN
 70
     0
  9
$DIMDSEP
 70
    44
  9
$DIMATFIT
 70
     3
  9
$DIMFRAC
 70
     0
  9
$DIMLDRBLK
  1

  9
$DIMLUNIT
 70
     2
  9
$DIMLWD
 70
    -2
  9
$DIMLWE
 70
    -2
  9
$DIMTMOVE
 70
     0
  9
$LUNITS
 70
     2
  9
$LUPREC
 70
     2
  9
$SKETCHINC
 40
1.0
  9
$FILLETRAD
 40
10.0
  9
$AUNITS
 70
     0
  9
$AUPREC
 70
     2
  9
$MENU
  1
.
  9
$ELEVATION
 40
0.0
  9
$PELEVATION
 40
0.0
  9
$THICKNESS
 40
0.0
  9
$LIMCHECK
 70
     0
  9
$CHAMFERA
 40
0.0
  9
$CHAMFERB
 40
0.0
  9
$CHAMFERC
 40
0.0
  9
$CHAMFERD
 40
0.0
  9
$SKPOLY
 70
     0
  9
$TDCREATE
 40
2458985.646375498
  9
$TDUCREATE
 40
2458985.521375498
  9
$TDUPDATE
 40
2458985.646375741
  9
$TDUUPDATE
 40
2458985.521375741
  9
$TDINDWG
 40
0.0000000116
  9
$TDUSRTIMER
 40
0.0000000116
  9
$USRTIMER
 70
     1
  9
$ANGBASE
 50
0.0
  9
$ANGDIR
 70
     0
  9
$PDMODE
 70
     0
  9
$PDSIZE
 40
-1.0
  9
$PLINEWID
 40
0.0
  9
$SPLFRAME
 70
     0
  9
$SPLINETYPE
 70
     6
  9
$SPLINESEGS
 70
     8
  9
$HANDSEED
  5
C2
  9
$SURFTAB1
 70
     6
  9
$SURFTAB2
 70
     6
  9
$SURFTYPE
 70
     6
  9
$SURFU
 70
     6
  9
$SURFV
 70
     6
  9
$UCSBASE
  2

  9
$UCSNAME
  2

  9
$UCSORG
 10
0.0
 20
0.0
 30
0.0
  9
$UCSXDIR
 10
1.0
 20
0.0
 30
0.0
  9
$UCSYDIR
 10
0.0
 20
1.0
 30
0.0
  9
$UCSORTHOREF
  2

  9
$UCSORTHOVIEW
 70
     0
  9
$UCSORGTOP
 10
0.0
 20
0.0
 30
0.0
  9
$UCSORGBOTTOM
 10
0.0
 20
0.0
 30
0.0
  9
$UCSORGLEFT
 10
0.0
 20
0.0
 30
0.0
  9
$UCSORGRIGHT
 10
0.0
 20
0.0
 30
0.0
  9
$UCSORGFRONT
 10
0.0
 20
0.0
 30
0.0
  9
$UCSORGBACK
 10
0.0
 20
0.0
 30
0.0
  9
$PUCSBASE
  2

  9
$PUCSNAME
  2

  9
$PUCSORG
 10
0.0
 20
0.0
 30
0.0
  9
$PUCSXDIR
 10
1.0
 20
0.0
 30
0.0
  9
$PUCSYDIR
 10
0.0
 20
1.0
 30
0.0
  9
$PUCSORTHOREF
  2

  9
$PUCSORTHOVIEW
 70
     0
  9
$PUCSORGTOP
 10
0.0
 20
0.0
 30
0.0
  9
$PUCSORGBOTTOM
 10
0.0
 20
0.0
 30
0.0
  9
$PUCSORGLEFT
 10
0.0
 20
0.0
 30
0.0
  9
$PUCSORGRIGHT
 10
0.0
 20
0.0
 30
0.0
  9
$PUCSORGFRONT
 10
0.0
 20
0.0
 30
0.0
  9
$PUCSORGBACK
 10
0.0
 20
0.0
 30
0.0
  9
$USERI1
 70
     0
  9
$USERI2
 70
     0
  9
$USERI3
 70
     0
  9
$USERI4
 70
     0
  9
$USERI5
 70
     0
  9
$USERR1
 40
0.0
  9
$USERR2
 40
0.0
  9
$USERR3
 40
0.0
  9
$USERR4
 40
0.0
  9
$USERR5
 40
0.0
  9
$WORLDVIEW
 70
     1
  9
$SHADEDGE
 70
     3
  9
$SHADEDIF
 70
    70
  9
$TILEMODE
 70
     1
  9
$MAXACTVP
 70
    64
  9
$PINSBASE
 10
0.0
 20
0.0
 30
0.0
  9
$PLIMCHECK
 70
     0
  9
$PEXTMIN
 10
1.0000000000E+20
 20
1.0000000000E+20
 30
1.0000000000E+20
  9
$PEXTMAX
 10
-1.0000000000E+20
 20
-1.0000000000E+20
 30
-1.0000000000E+20
  9
$PLIMMIN
 10
0.0
 20
0.0
  9
$PLIMMAX
 10
420.0
 20
297.0
  9
$UNITMODE
 70
     0
  9
$VISRETAIN
 70
     1
  9
$PLINEGEN
 70
     0
  9
$PSLTSCALE
 70
     1
  9
$TREEDEPTH
 70
  3020
  9
$CMLSTYLE
  2
Standard
  9
$CMLJUST
 70
     0
  9
$CMLSCALE
 40
20.0
  9
$PROXYGRAPHICS
 70
     1
  9
$MEASUREMENT
 70
     1
  9
$CELWEIGHT
370
    -1
  9
$ENDCAPS
280
     0
  9
$JOINSTYLE
280
     0
  9
$LWDISPLAY
290
     1
  9
$INSUNITS
 70
     4
  9
$HYPERLINKBASE
  1

  9
$STYLESHEET
  1

  9
$XEDIT
290
     1
  9
$CEPSNTYPE
380
     0
  9
$PSTYLEMODE
290
     1
  9
$FINGERPRINTGUID
  2
{75024cdc-ca1e-438b-b83e-47aaca362984}
  9
$VERSIONGUID
  2
{FAEB1C32-E019-11D5-929B-00C0DF256EC4}
  9
$EXTNAMES
290
     1
  9
$PSVPSCALE
 40
0.0
  9
$OLESTARTUP
290
     0
  0
ENDSEC
  0
SECTION
  2
CLASSES
  0
CLASS
  1
ACDBDICTIONARYWDFLT
  2
AcDbDictionaryWithDefault
  3
ObjectDBX Classes
 90
        0
280
     0
281
     0
  0
CLASS
  1
VISUALSTYLE
  2
AcDbVisualStyle
  3
ObjectDBX Classes
 90
     4095
280
     0
281
     0
  0
CLASS
  1
MATERIAL
  2
AcDbMaterial
  3
ObjectDBX Classes
 90
     1153
280
     0
281
     0
  0
CLASS
  1
SCALE
  2
AcDbScale
  3
ObjectDBX Classes
 90
     1153
280
     0
281
     0
  0
CLASS
  1
TABLESTYLE
  2
AcDbTableStyle
  3
ObjectDBX Classes
 90
     4095
280
     0
281
     0
  0
CLASS
  1
MLEADERSTYLE
  2
AcDbMLeaderStyle
  3
ACDB_MLEADERSTYLE_CLASS
 90
     4095
280
     0
281
     0
  0
CLASS
  1
SUN
  2
AcDbSun
  3
SCENEOE
 90
     1153
280
     0
281
     0
  0
CLASS
  1
ACDBPLACEHOLDER
  2
AcDbPlaceHolder
  3
ObjectDBX Classes
 90
        0
280
     0
281
     0
  0
CLASS
  1
LAYOUT
  2
AcDbLayout
  3
ObjectDBX Classes
 90
        0
280
     0
281
     0
  0
ENDSEC
  0
SECTION
  2
TABLES
  0
TABLE
  2
VPORT
  5
8
330
0
100
AcDbSymbolTable
 70
     1
  0
VPORT
  5
29
330
8
100
AcDbSymbolTableRecord
100
AcDbViewportTableRecord
  2
*Active
 70
     0
 10
0.0
 20
0.0
 11
1.0
 21
1.0
 12
139.7
 22
107.95
 13
0.0
 23
0.0
 14
10.0
 24
10.0
 15
10.0
 25
10.0
 16
0.0
 26
0.0
 36
1.0
 17
0.0
 27
0.0
 37
0.0
 40
215.9
 41
1.2941176471
 42
50.0
 43
0.0
 44
0.0
 50
0.0
 51
0.0
 71
     0
 72
  2000
 73
     1
 74
     3
 75
     0
 76
     0
 77
     0
 78
     0
281
     0
 65
     1
110
0.0
120
0.0
130
0.0
111
1.0
121
0.0
131
0.0
112
0.0
122
1.0
132
0.0
 79
     0
146
0.0
  0
ENDTAB
  0
TABLE
  2
LTYPE
  5
5
330
0
100
AcDbSymbolTable
 70
     6
  0
LTYPE
  5
14
330
5
100
AcDbSymbolTableRecord
100
AcDbLinetypeTableRecord
  2
ByBlock
 70
     0
  3

 72
    65
 73
     0
 40
0.0
  0
LTYPE
  5
15
330
5
100
AcDbSymbolTableRecord
100
AcDbLinetypeTableRecord
  2
ByLayer
 70
     0
  3

 72
    65
 73
     0
 40
0.0
  0
LTYPE
  5
16
330
5
100
AcDbSymbolTableRecord
100
AcDbLinetypeTableRecord
  2
Continuous
 70
     0
  3
Solid line
 72
    65
 73
     0
 40
0.0
  0
LTYPE
  5
6E
330
5
100
AcDbSymbolTableRecord
100
AcDbLinetypeTableRecord
  2
HIDDEN
 70
     0
  3
Hidden __ __ __ __ __ __ __ __ __ __ __ __ __ __
 72
    65
 73
     2
 40
1.905
 49
1.27
 74
     0
 49
-0.635
 74
     0
  0
LTYPE
  5
6F
330
5
100
AcDbSymbolTableRecord
100
AcDbLinetypeTableRecord
  2
PHANTOM
 70
     0
  3
Phantom ______  __  __  ______  __  __  ______
 72
    65
 73
     6
 40
12.7
 49
6.35
 74
     0
 49
-1.27
 74
     0
 49
1.27
 74
     0
 49
-1.27
 74
     0
 49
1.27
 74
     0
 49
-1.27
 74
     0
  0
LTYPE
  5
70
330
5
100
AcDbSymbolTableRecord
100
AcDbLinetypeTableRecord
  2
CENTER
 70
     0
  3
Center ____ _ ____ _ ____ _ ____ _ ____ _ ____
 72
    65
 73
     4
 40
10.16
 49
6.35
 74
     0
 49
-1.27
 74
     0
 49
1.27
 74
     0
 49
-1.27
 74
     0
  0
LTYPE
  5
71
330
5
100
AcDbSymbolTableRecord
100
AcDbLinetypeTableRecord
  2
CENTERX2
 70
     0
  3
Center (2x) ________  __  ________  __  _____
 72
    65
 73
     4
 40
20.32
 49
12.7
 74
     0
 49
-2.54
 74
     0
 49
2.54
 74
     0
 49
-2.54
 74
     0
  0
LTYPE
  5
72
330
5
100
AcDbSymbolTableRecord
100
AcDbLinetypeTableRecord
  2
DOT2
 70
     0
  3
Dot (.5x) ........................................
 72
    65
 73
     2
 40
0.635
 49
0.0
 74
     0
 49
-0.635
 74
     0
  0
ENDTAB
  0
TABLE
  2
LAYER
  5
2
330
0
100
AcDbSymbolTable
 70
    17
  0
LAYER
  5
10
330
2
100
AcDbSymbolTableRecord
100
AcDbLayerTableRecord
  2
0
 70
     0
 62
     7
  6
Continuous
370
    -3
390
F
  0
LAYER
  5
73
330
2
100
AcDbSymbolTableRecord
100
AcDbLayerTableRecord
  2
FORMAT
 70
     0
 62
     7
  6
Continuous
370
    -3
390
F
  0
LAYER
  5
74
330
2
100
AcDbSymbolTableRecord
100
AcDbLayerTableRecord
  2
YARDIMCI_GEOMETRI
 70
     0
 62
    -6
  6
Continuous
290
     0
370
    -3
390
F
  0
LAYER
  5
75
330
2
100
AcDbSymbolTableRecord
100
AcDbLayerTableRecord
  2
SAYFA_CERCEVESI
 70
     0
 62
     7
  6
Continuous
370
    25
390
F
  0
LAYER
  5
76
330
2
100
AcDbSymbolTableRecord
100
AcDbLayerTableRecord
  2
ANTET
 70
     0
 62
     7
  6
Continuous
370
    -3
390
F
  0
LAYER
  5
77
330
2
100
AcDbSymbolTableRecord
100
AcDbLayerTableRecord
  2
OLCU
 70
     0
 62
   150
  6
Continuous
370
    -3
390
F
  0
LAYER
  5
78
330
2
100
AcDbSymbolTableRecord
100
AcDbLayerTableRecord
  2
METIN
 70
     0
 62
    96
  6
Continuous
370
    -3
390
F
  0
LAYER
  5
79
330
2
100
AcDbSymbolTableRecord
100
AcDbLayerTableRecord
  2
BALON
 70
     0
 62
     5
  6
Continuous
370
    -3
390
F
  0
LAYER
  5
7A
330
2
100
AcDbSymbolTableRecord
100
AcDbLayerTableRecord
  2
VURGU
 70
     0
 62
     7
  6
Continuous
370
    -3
390
F
  0
LAYER
  5
7B
330
2
100
AcDbSymbolTableRecord
100
AcDbLayerTableRecord
  2
SILIK
 70
     0
 62
     7
  6
Continuous
370
    -3
390
F
  0
LAYER
  5
7C
330
2
100
AcDbSymbolTableRecord
100
AcDbLayerTableRecord
  2
MODEL
 70
     0
 62
     7
  6
Continuous
370
    -3
390
F
  0
LAYER
  5
7D
330
2
100
AcDbSymbolTableRecord
100
AcDbLayerTableRecord
  2
DETAYLANDıRMA
 70
     0
 62
   190
  6
Continuous
370
    -3
390
F
  0
LAYER
  5
7E
330
2
100
AcDbSymbolTableRecord
100
AcDbLayerTableRecord
  2
TOLERANS
 70
     0
 62
   230
  6
Continuous
370
    -3
390
F
  0
LAYER
  5
7F
330
2
100
AcDbSymbolTableRecord
100
AcDbLayerTableRecord
  2
MERKEZ_CIZGILERI
 70
     0
 62
    30
  6
Continuous
370
    -3
390
F
  0
LAYER
  5
80
330
2
100
AcDbSymbolTableRecord
100
AcDbLayerTableRecord
  2
KESIT-DETAY_CIZGILERI
 70
     0
 62
     7
  6
Continuous
370
    -3
390
F
  0
LAYER
  5
81
330
2
100
AcDbSymbolTableRecord
100
AcDbLayerTableRecord
  2
\U+041E\U+0421\U+0415\U+0412\U+042B\U+0415
 70
     0
 62
     7
  6
Continuous
370
    -3
390
F
  0
LAYER
  5
82
330
2
100
AcDbSymbolTableRecord
100
AcDbLayerTableRecord
  2
\U+0412\U+041E\U+0414\U+042F\U+041D\U+042B\U+0415_\U+0417\U+041D\U+0410\U+041A\U+0418
 70
     0
 62
    11
  6
Continuous
370
    -3
390
F
  0
ENDTAB
  0
TABLE
  2
STYLE
  5
3
330
0
100
AcDbSymbolTable
 70
     1
  0
STYLE
  5
11
330
3
100
AcDbSymbolTableRecord
100
AcDbTextStyleTableRecord
  2
Standard
 70
     0
 40
0.0
 41
1.0
 50
0.0
 71
     0
 42
3.5
  3
txt
  4

  0
ENDTAB
  0
TABLE
  2
VIEW
  5
6
330
0
100
AcDbSymbolTable
 70
     0
  0
ENDTAB
  0
TABLE
  2
UCS
  5
7
330
0
100
AcDbSymbolTable
 70
     0
  0
ENDTAB
  0
TABLE
  2
APPID
  5
9
330
0
100
AcDbSymbolTable
 70
     1
  0
APPID
  5
12
330
9
100
AcDbSymbolTableRecord
100
AcDbRegAppTableRecord
  2
ACAD
 70
     0
  0
ENDTAB
  0
TABLE
  2
DIMSTYLE
  5
A
330
0
100
AcDbSymbolTable
 70
     1
100
AcDbDimStyleTable
  0
DIMSTYLE
105
27
330
A
100
AcDbSymbolTableRecord
100
AcDbDimStyleTableRecord
  2
ISO-25
 70
     0
 41
2.5
 42
0.625
 43
3.75
 44
1.25
 73
     0
 74
     0
 77
     1
 78
     8
140
2.5
141
2.5
143
0.0393700787
147
0.625
171
     3
172
     1
178
     0
271
     2
272
     2
274
     3
278
    44
283
     0
284
     8
340
11
  0
ENDTAB
  0
TABLE
  2
BLOCK_RECORD
  5
1
330
0
100
AcDbSymbolTable
 70
     1
  0
BLOCK_RECORD
  5
1F
330
1
100
AcDbSymbolTableRecord
100
AcDbBlockTableRecord
  2
*Model_Space
340
22
  0
BLOCK_RECORD
  5
1B
330
1
100
AcDbSymbolTableRecord
100
AcDbBlockTableRecord
  2
*Paper_Space
340
1E
  0
BLOCK_RECORD
  5
23
330
1
100
AcDbSymbolTableRecord
100
AcDbBlockTableRecord
  2
*Paper_Space0
340
26
  0
ENDTAB
  0
ENDSEC
  0
SECTION
  2
BLOCKS
  0
BLOCK
  5
20
330
1F
100
AcDbEntity
  8
0
100
AcDbBlockBegin
  2
*Model_Space
 70
     0
 10
0.0
 20
0.0
 30
0.0
  3
*Model_Space
  1

  0
ENDBLK
  5
21
330
1F
100
AcDbEntity
  8
0
100
AcDbBlockEnd
  0
BLOCK
  5
1C
330
1B
100
AcDbEntity
 67
     1
  8
0
100
AcDbBlockBegin
  2
*Paper_Space
 70
     0
 10
0.0
 20
0.0
 30
0.0
  3
*Paper_Space
  1

  0
ENDBLK
  5
1D
330
1B
100
AcDbEntity
 67
     1
  8
0
100
AcDbBlockEnd
  0
BLOCK
  5
24
330
23
100
AcDbEntity
  8
0
100
AcDbBlockBegin
  2
*Paper_Space0
 70
     0
 10
0.0
 20
0.0
 30
0.0
  3
*Paper_Space0
  1

  0
ENDBLK
  5
25
330
23
100
AcDbEntity
  8
0
100
AcDbBlockEnd
  0
ENDSEC
  0
SECTION
  2
ENTITIES
  0
CIRCLE
  5
83
330
1F
100
AcDbEntity
  8
0
  6
Continuous
 62
     7
370
    25
100
AcDbCircle
 10
143.5861415271
 20
108.1504082523
 30
0.0
 40
225.0
  0
CIRCLE
  5
84
330
1F
100
AcDbEntity
  8
0
  6
Continuous
 62
     7
370
    25
100
AcDbCircle
 10
143.5861415271
 20
108.1504082523
 30
0.0
 40
184.1
  0
CIRCLE
  5
85
330
1F
100
AcDbEntity
  8
0
  6
Continuous
 62
     7
370
    25
100
AcDbCircle
 10
143.5861415271
 20
108.1504082523
 30
0.0
 40
232.5
  0
CIRCLE
  5
86
330
1F
100
AcDbEntity
  8
0
  6
Continuous
 62
     7
370
    25
100
AcDbCircle
 10
143.5861415271
 20
108.1504082523
 30
0.0
 40
272.5
  0
LINE
  5
87
330
1F
100
AcDbEntity
  8
0
  6
Continuous
 62
     7
370
    25
100
AcDbLine
 10
416.0861415271
 20
579.9574863759
 30
0.0
 11
416.0861415271
 21
645.9574863759
 31
0.0
  0
LINE
  5
88
330
1F
100
AcDbEntity
  8
0
  6
Continuous
 62
     7
370
    25
100
AcDbLine
 10
-128.9138584729
 20
645.9574863759
 30
0.0
 11
-128.9138584729
 21
579.9574863759
 31
0.0
  0
LINE
  5
89
330
1F
100
AcDbEntity
  8
0
  6
Continuous
 62
     7
370
    25
100
AcDbLine
 10
376.0861415271
 20
645.9574863759
 30
0.0
 11
368.5861415271
 21
679.9574863759
 31
0.0
  0
LINE
  5
8A
330
1F
100
AcDbEntity
  8
0
  6
Continuous
 62
     7
370
    25
100
AcDbLine
 10
-81.4138584729
 20
679.9574863759
 30
0.0
 11
-88.9138584729
 21
645.9574863759
 31
0.0
  0
LINE
  5
8B
330
1F
100
AcDbEntity
  8
0
  6
Continuous
 62
     7
370
    25
100
AcDbLine
 10
368.5861415271
 20
679.9574863759
 30
0.0
 11
368.5861415271
 21
719.9574863759
 31
0.0
  0
LINE
  5
8C
330
1F
100
AcDbEntity
  8
0
  6
Continuous
 62
     7
370
    25
100
AcDbLine
 10
-81.4138584729
 20
719.9574863759
 30
0.0
 11
-81.4138584729
 21
679.9574863759
 31
0.0
  0
LINE
  5
8D
330
1F
100
AcDbEntity
  8
0
  6
Continuous
 62
     7
370
    25
100
AcDbLine
 10
416.0861415271
 20
579.9574863759
 30
0.0
 11
-128.9138584729
 21
579.9574863759
 31
0.0
  0
LINE
  5
8E
330
1F
100
AcDbEntity
  8
0
  6
Continuous
 62
     7
370
    25
100
AcDbLine
 10
416.0861415271
 20
645.9574863759
 30
0.0
 11
-128.9138584729
 21
645.9574863759
 31
0.0
  0
LINE
  5
8F
330
1F
100
AcDbEntity
  8
0
  6
Continuous
 62
     7
370
    25
100
AcDbLine
 10
368.5861415271
 20
679.9574863759
 30
0.0
 11
-81.4138584729
 21
679.9574863759
 31
0.0
  0
LINE
  5
90
330
1F
100
AcDbEntity
  8
0
  6
Continuous
 62
     7
370
    25
100
AcDbLine
 10
368.5861415271
 20
719.9574863759
 30
0.0
 11
-81.4138584729
 21
719.9574863759
 31
0.0
  0
LINE
  5
91
330
1F
100
AcDbEntity
  8
0
  6
Continuous
 62
     7
370
    25
100
AcDbLine
 10
-357.2645448759
 20
380.6504082523
 30
0.0
 11
-423.2645448759
 21
380.6504082523
 31
0.0
  0
LINE
  5
92
330
1F
100
AcDbEntity
  8
0
  6
Continuous
 62
     7
370
    25
100
AcDbLine
 10
-423.2645448759
 20
-164.3495917477
 30
0.0
 11
-357.2645448759
 21
-164.3495917477
 31
0.0
  0
LINE
  5
93
330
1F
100
AcDbEntity
  8
0
  6
Continuous
 62
     7
370
    25
100
AcDbLine
 10
-423.2645448759
 20
340.6504082523
 30
0.0
 11
-457.2645448759
 21
333.1504082523
 31
0.0
  0
LINE
  5
94
330
1F
100
AcDbEntity
  8
0
  6
Continuous
 62
     7
370
    25
100
AcDbLine
 10
-457.2645448759
 20
-116.8495917477
 30
0.0
 11
-423.2645448759
 21
-124.3495917477
 31
0.0
  0
LINE
  5
95
330
1F
100
AcDbEntity
  8
0
  6
Continuous
 62
     7
370
    25
100
AcDbLine
 10
-457.2645448759
 20
333.1504082523
 30
0.0
 11
-497.2645448759
 21
333.1504082523
 31
0.0
  0
LINE
  5
96
330
1F
100
AcDbEntity
  8
0
  6
Continuous
 62
     7
370
    25
100
AcDbLine
 10
-497.2645448759
 20
-116.8495917477
 30
0.0
 11
-457.2645448759
 21
-116.8495917477
 31
0.0
  0
LINE
  5
97
330
1F
100
AcDbEntity
  8
0
  6
Continuous
 62
     7
370
    25
100
AcDbLine
 10
-357.2645448759
 20
380.6504082523
 30
0.0
 11
-357.2645448759
 21
-164.3495917477
 31
0.0
  0
LINE
  5
98
330
1F
100
AcDbEntity
  8
0
  6
Continuous
 62
     7
370
    25
100
AcDbLine
 10
-423.2645448759
 20
380.6504082523
 30
0.0
 11
-423.2645448759
 21
-164.3495917477
 31
0.0
  0
LINE
  5
99
330
1F
100
AcDbEntity
  8
0
  6
Continuous
 62
     7
370
    25
100
AcDbLine
 10
-457.2645448759
 20
333.1504082523
 30
0.0
 11
-457.2645448759
 21
-116.8495917477
 31
0.0
  0
LINE
  5
9A
330
1F
100
AcDbEntity
  8
0
  6
Continuous
 62
     7
370
    25
100
AcDbLine
 10
-497.2645448759
 20
333.1504082523
 30
0.0
 11
-497.2645448759
 21
-116.8495917477
 31
0.0
  0
LINE
  5
9B
330
1F
100
AcDbEntity
  8
0
  6
Continuous
 62
     7
370
    25
100
AcDbLine
 10
-128.9138584729
 20
-360.8865276189
 30
0.0
 11
-128.9138584729
 21
-426.8865276189
 31
0.0
  0
LINE
  5
9C
330
1F
100
AcDbEntity
  8
0
  6
Continuous
 62
     7
370
    25
100
AcDbLine
 10
416.0861415271
 20
-426.8865276189
 30
0.0
 11
416.0861415271
 21
-360.8865276189
 31
0.0
  0
LINE
  5
9D
330
1F
100
AcDbEntity
  8
0
  6
Continuous
 62
     7
370
    25
100
AcDbLine
 10
-88.9138584729
 20
-426.8865276189
 30
0.0
 11
-81.4138584729
 21
-460.8865276189
 31
0.0
  0
LINE
  5
9E
330
1F
100
AcDbEntity
  8
0
  6
Continuous
 62
     7
370
    25
100
AcDbLine
 10
368.5861415271
 20
-460.8865276189
 30
0.0
 11
376.0861415271
 21
-426.8865276189
 31
0.0
  0
LINE
  5
9F
330
1F
100
AcDbEntity
  8
0
  6
Continuous
 62
     7
370
    25
100
AcDbLine
 10
-81.4138584729
 20
-460.8865276189
 30
0.0
 11
-81.4138584729
 21
-500.8865276189
 31
0.0
  0
LINE
  5
A0
330
1F
100
AcDbEntity
  8
0
  6
Continuous
 62
     7
370
    25
100
AcDbLine
 10
368.5861415271
 20
-500.8865276189
 30
0.0
 11
368.5861415271
 21
-460.8865276189
 31
0.0
  0
LINE
  5
A1
330
1F
100
AcDbEntity
  8
0
  6
Continuous
 62
     7
370
    25
100
AcDbLine
 10
-128.9138584729
 20
-360.8865276189
 30
0.0
 11
416.0861415271
 21
-360.8865276189
 31
0.0
  0
LINE
  5
A2
330
1F
100
AcDbEntity
  8
0
  6
Continuous
 62
     7
370
    25
100
AcDbLine
 10
-128.9138584729
 20
-426.8865276189
 30
0.0
 11
416.0861415271
 21
-426.8865276189
 31
0.0
  0
LINE
  5
A3
330
1F
100
AcDbEntity
  8
0
  6
Continuous
 62
     7
370
    25
100
AcDbLine
 10
-81.4138584729
 20
-460.8865276189
 30
0.0
 11
368.5861415271
 21
-460.8865276189
 31
0.0
  0
LINE
  5
A4
330
1F
100
AcDbEntity
  8
0
  6
Continuous
 62
     7
370
    25
100
AcDbLine
 10
-81.4138584729
 20
-500.8865276189
 30
0.0
 11
368.5861415271
 21
-500.8865276189
 31
0.0
  0
LINE
  5
A5
330
1F
100
AcDbEntity
  8
0
  6
Continuous
 62
     7
370
    25
100
AcDbLine
 10
622.5150763056
 20
-164.3495917477
 30
0.0
 11
688.5150763056
 21
-164.3495917477
 31
0.0
  0
LINE
  5
A6
330
1F
100
AcDbEntity
  8
0
  6
Continuous
 62
     7
370
    25
100
AcDbLine
 10
688.5150763056
 20
380.6504082523
 30
0.0
 11
622.5150763056
 21
380.6504082523
 31
0.0
  0
LINE
  5
A7
330
1F
100
AcDbEntity
  8
0
  6
Continuous
 62
     7
370
    25
100
AcDbLine
 10
688.5150763056
 20
-124.3495917477
 30
0.0
 11
722.5150763056
 21
-116.8495917477
 31
0.0
  0
LINE
  5
A8
330
1F
100
AcDbEntity
  8
0
  6
Continuous
 62
     7
370
    25
100
AcDbLine
 10
722.5150763056
 20
333.1504082523
 30
0.0
 11
688.5150763056
 21
340.6504082523
 31
0.0
  0
LINE
  5
A9
330
1F
100
AcDbEntity
  8
0
  6
Continuous
 62
     7
370
    25
100
AcDbLine
 10
722.5150763056
 20
-116.8495917477
 30
0.0
 11
762.5150763056
 21
-116.8495917477
 31
0.0
  0
LINE
  5
AA
330
1F
100
AcDbEntity
  8
0
  6
Continuous
 62
     7
370
    25
100
AcDbLine
 10
762.5150763056
 20
333.1504082523
 30
0.0
 11
722.5150763056
 21
333.1504082523
 31
0.0
  0
LINE
  5
AB
330
1F
100
AcDbEntity
  8
0
  6
Continuous
 62
     7
370
    25
100
AcDbLine
 10
622.5150763056
 20
108.1504082523
 30
0.0
 11
622.5150763056
 21
380.6504082523
 31
0.0
  0
LINE
  5
AC
330
1F
100
AcDbEntity
  8
0
  6
Continuous
 62
     7
370
    25
100
AcDbLine
 10
622.5150763056
 20
-164.3495917477
 30
0.0
 11
622.5150763056
 21
108.1504082523
 31
0.0
  0
LINE
  5
AD
330
1F
100
AcDbEntity
  8
0
  6
Continuous
 62
     7
370
    25
100
AcDbLine
 10
688.5150763056
 20
108.1504082523
 30
0.0
 11
688.5150763056
 21
380.6504082523
 31
0.0
  0
LINE
  5
AE
330
1F
100
AcDbEntity
  8
0
  6
Continuous
 62
     7
370
    25
100
AcDbLine
 10
688.5150763056
 20
-164.3495917477
 30
0.0
 11
688.5150763056
 21
108.1504082523
 31
0.0
  0
LINE
  5
AF
330
1F
100
AcDbEntity
  8
0
  6
Continuous
 62
     7
370
    25
100
AcDbLine
 10
722.5150763056
 20
108.1504082523
 30
0.0
 11
722.5150763056
 21
333.1504082523
 31
0.0
  0
LINE
  5
B0
330
1F
100
AcDbEntity
  8
0
  6
Continuous
 62
     7
370
    25
100
AcDbLine
 10
722.5150763056
 20
-116.8495917477
 30
0.0
 11
722.5150763056
 21
108.1504082523
 31
0.0
  0
LINE
  5
B1
330
1F
100
AcDbEntity
  8
0
  6
Continuous
 62
     7
370
    25
100
AcDbLine
 10
762.5150763056
 20
108.1504082523
 30
0.0
 11
762.5150763056
 21
333.1504082523
 31
0.0
  0
LINE
  5
B2
330
1F
100
AcDbEntity
  8
0
  6
Continuous
 62
     7
370
    25
100
AcDbLine
 10
762.5150763056
 20
-116.8495917477
 30
0.0
 11
762.5150763056
 21
108.1504082523
 31
0.0
  0
LINE
  5
B3
330
1F
100
AcDbEntity
  8
0
  6
Continuous
 62
     7
370
    25
100
AcDbLine
 10
924.7139412166
 20
-261.4959784642
 30
0.0
 11
878.0448936583
 21
-234.5545107741
 31
0.0
  0
LINE
  5
B4
330
1F
100
AcDbEntity
  8
0
  6
Continuous
 62
     7
370
    25
100
AcDbLine
 10
605.567039015
 20
-706.5511407716
 30
0.0
 11
652.2360865733
 21
-733.4926084617
 31
0.0
  0
LINE
  5
B5
330
1F
100
AcDbEntity
  8
0
  6
Continuous
 62
     7
370
    25
100
AcDbLine
 10
830.2551931979
 20
-261.8128938362
 30
0.0
 11
801.9709219504
 21
-245.4847315997
 31
0.0
  0
LINE
  5
B6
330
1F
100
AcDbEntity
  8
0
  6
Continuous
 62
     7
370
    25
100
AcDbLine
 10
576.9892071073
 20
-635.206719671
 30
0.0
 11
605.2734783547
 21
-651.5348819075
 31
0.0
  0
LINE
  5
B7
330
1F
100
AcDbEntity
  8
0
  6
Continuous
 62
     7
370
    25
100
AcDbLine
 10
838.4879805225
 20
-261.1919752632
 30
0.0
 11
821.4258809771
 21
-256.715840385
 31
0.0
  0
LINE
  5
B8
330
1F
100
AcDbEntity
  8
0
  6
Continuous
 62
     7
370
    25
100
AcDbLine
 10
596.4441661339
 20
-646.4378284563
 30
0.0
 11
608.8528389242
 21
-658.9748083131
 31
0.0
  0
LWPOLYLINE
  5
B9
330
1F
100
AcDbEntity
  8
0
  6
Continuous
 62
     7
370
    25
100
AcDbPolyline
 90
       90
 70
   128
 43
0.0
 10
924.7139412166
 20
-261.4959784642
 10
926.5470747731
 20
-262.5830881997
 10
931.2826565431
 20
-265.672629483
 10
935.8341660147
 20
-269.0609779291
 10
940.1957365073
 20
-272.743766117
 10
944.3617461628
 20
-276.716247107
 10
948.3268251917
 20
-280.9733005589
 10
952.0858627948
 20
-285.5094393321
 10
955.6340137502
 20
-290.3188165583
 10
958.9667046593
 20
-295.3952331775
 10
962.0796398409
 20
-300.7321459289
 10
964.9688068688
 20
-306.3226757842
 10
967.6304817434
 20
-312.1596168148
 10
970.0612336916
 20
-318.2354454798
 10
972.2579295891
 20
-324.5423303232
 10
974.2177379987
 20
-331.0721420689
 10
975.9381328201
 20
-337.8164640981
 10
977.4168965457
 20
-344.7666032988
 10
978.652123119
 20
-351.9136012701
 10
979.6422203914
 20
-359.2482458696
 10
980.3859121742
 20
-366.7610830873
 10
980.882239884
 20
-374.4424292312
 10
981.1305637777
 20
-382.2823834094
 10
981.1305637777
 20
-390.2708402917
 10
980.882239884
 20
-398.3975031349
 10
980.3859121742
 20
-406.6518970548
 10
979.6422203914
 20
-415.0233825281
 10
978.652123119
 20
-423.5011691059
 10
977.4168965457
 20
-432.074329322
 10
975.9381328201
 20
-440.7318127784
 10
974.2177379987
 20
-449.4624603883
 10
972.2579295891
 20
-458.2550187598
 10
970.0612336916
 20
-467.0981547009
 10
967.6304817434
 20
-475.9804698275
 10
964.9688068688
 20
-484.8905152555
 10
962.0796398409
 20
-493.8168063575
 10
958.9667046593
 20
-502.7478375666
 10
955.6340137502
 20
-511.6720972057
 10
952.0858627948
 20
-520.5780823263
 10
948.3268251917
 20
-529.4543135345
 10
944.3617461628
 20
-538.2893497882
 10
940.1957365073
 20
-547.0718031433
 10
935.8341660147
 20
-555.7903534328
 10
931.2826565431
 20
-564.4337628576
 10
926.5470747731
 20
-572.9908904717
 10
921.6335246456
 20
-581.4507065422
 10
916.5483394943
 20
-589.8023067663
 10
911.2980738825
 20
-598.0349263262
 10
905.8894951542
 20
-606.1379537646
 10
900.3295747118
 20
-614.1009446622
 10
894.6254790296
 20
-621.9136351003
 10
888.7845604175
 20
-629.5659548905
 10
882.8143475431
 20
-637.0480405543
 10
876.7225357287
 20
-644.3502480372
 10
870.5169770315
 20
-651.4631651389
 10
864.2056701234
 20
-658.3776236457
 10
857.7967499804
 20
-665.0847111475
 10
851.2984773976
 20
-671.5757825257
 10
844.7192283411
 20
-677.8424710963
 10
838.0674831518
 20
-683.8766993939
 10
831.3518156146
 20
-689.6706895837
 10
824.5808819075
 20
-695.2169734862
 10
817.7634094439
 20
-700.5084022039
 10
810.9081856233
 20
-705.5381553352
 10
804.0240465052
 20
-710.2997497663
 10
797.1198654194
 20
-714.7870480271
 10
790.2045415286
 20
-718.9942662023
 10
783.2869883586
 20
-722.9159813866
 10
776.3761223082
 20
-726.5471386746
 10
769.4808511568
 20
-729.8830576763
 10
762.6100625831
 20
-732.9194385498
 10
755.7726127086
 20
-735.6523675437
 10
748.9773146828
 20
-738.0783220418
 10
742.2329273236
 20
-740.1941751035
 10
735.5481438273
 20
-741.9971994943
 10
728.9315805638
 20
-743.4850712009
 10
722.3917659703
 20
-744.655872427
 10
715.9371295585
 20
-745.5080940653
 10
709.5759910495
 20
-746.0406376424
 10
703.3165496501
 20
-746.2528167348
 10
697.1668734842
 20
-746.1443578536
 10
691.1348891937
 20
-745.7154007972
 10
685.2283717211
 20
-744.9664984711
 10
679.454934288
 20
-743.8986161748
 10
673.8220185823
 20
-742.5131303581
 10
668.3368851661
 20
-740.8118268469
 10
663.0066041168
 20
-738.7968985407
 10
657.8380459148
 20
-736.470942587
 10
652.8378725871
 20
-733.836957033
 10
652.2360865733
 20
-733.4926084617
  0
LWPOLYLINE
  5
BA
330
1F
100
AcDbEntity
  8
0
  6
Continuous
 62
     7
370
    25
100
AcDbPolyline
 90
      126
 70
   128
 43
0.0
 10
767.5169013408
 20
-235.1925737075
 10
771.0943618856
 20
-233.7230553177
 10
777.9118343492
 20
-231.1431978739
 10
784.6827680563
 20
-228.8719281196
 10
791.3984355934
 20
-226.912173614
 10
798.0501807828
 20
-225.2664603882
 10
804.6294298393
 20
-223.9369096886
 10
811.1277024221
 20
-222.9252352431
 10
817.5366225651
 20
-222.2327410524
 10
823.8479294732
 20
-221.8603197087
 10
830.0534881704
 20
-221.8084512454
 10
836.1452999848
 20
-222.0772025186
 10
842.1155128592
 20
-222.6662271207
 10
847.9564314713
 20
-223.5747658266
 10
853.6605271535
 20
-224.8016475731
 10
859.2204475959
 20
-226.3452909675
 10
864.6290263242
 20
-228.2037063265
 10
869.879291936
 20
-230.3744982406
 10
874.9644770873
 20
-232.8548686617
 10
879.8780272148
 20
-235.6416205096
 10
884.6136089848
 20
-238.7311617928
 10
889.1651184564
 20
-242.1195102389
 10
893.526688949
 20
-245.8022984269
 10
897.6926986045
 20
-249.7747794169
 10
901.6577776334
 20
-254.0318328688
 10
905.4168152365
 20
-258.567971642
 10
908.9649661919
 20
-263.3773488681
 10
912.297657101
 20
-268.4537654874
 10
915.4105922825
 20
-273.7906782387
 10
918.2997593105
 20
-279.381208094
 10
920.9614341851
 20
-285.2181491246
 10
923.3921861333
 20
-291.2939777896
 10
925.5888820307
 20
-297.6008626331
 10
927.5486904404
 20
-304.1306743787
 10
929.2690852618
 20
-310.874996408
 10
930.7478489874
 20
-317.8251356086
 10
931.9830755607
 20
-324.9721335799
 10
932.973172833
 20
-332.3067781795
 10
933.7168646159
 20
-339.8196153972
 10
934.2131923257
 20
-347.5009615411
 10
934.4615162194
 20
-355.3409157193
 10
934.4615162194
 20
-363.3293726016
 10
934.2131923257
 20
-371.4560354447
 10
933.7168646159
 20
-379.7104293647
 10
932.973172833
 20
-388.081914838
 10
931.9830755607
 20
-396.5597014157
 10
930.7478489874
 20
-405.1328616318
 10
929.2690852618
 20
-413.7903450883
 10
927.5486904404
 20
-422.5209926982
 10
925.5888820307
 20
-431.3135510697
 10
923.3921861333
 20
-440.1566870107
 10
920.9614341851
 20
-449.0390021373
 10
918.2997593105
 20
-457.9490475653
 10
915.4105922825
 20
-466.8753386674
 10
912.2976571009
 20
-475.8063698765
 10
908.9649661919
 20
-484.7306295156
 10
905.4168152365
 20
-493.6366146361
 10
901.6577776334
 20
-502.5128458444
 10
897.6926986045
 20
-511.347882098
 10
893.526688949
 20
-520.1303354531
 10
889.1651184564
 20
-528.8488857426
 10
884.6136089848
 20
-537.4922951674
 10
879.8780272148
 20
-546.0494227815
 10
874.9644770873
 20
-554.5092388521
 10
869.879291936
 20
-562.8608390762
 10
864.6290263242
 20
-571.0934586361
 10
859.2204475959
 20
-579.1964860744
 10
853.6605271535
 20
-587.159476972
 10
847.9564314713
 20
-594.9721674102
 10
842.1155128592
 20
-602.6244872004
 10
836.1452999848
 20
-610.1065728642
 10
830.0534881704
 20
-617.408780347
 10
823.8479294732
 20
-624.5216974487
 10
817.5366225651
 20
-631.4361559555
 10
811.1277024221
 20
-638.1432434573
 10
804.6294298393
 20
-644.6343148356
 10
798.0501807828
 20
-650.9010034061
 10
791.3984355934
 20
-656.9352317037
 10
784.6827680563
 20
-662.7292218935
 10
777.9118343492
 20
-668.2755057961
 10
771.0943618856
 20
-673.5669345137
 10
764.239138065
 20
-678.5966876451
 10
757.3549989469
 20
-683.3582820762
 10
750.450817861
 20
-687.8455803369
 10
743.5354939703
 20
-692.0527985121
 10
736.6179408003
 20
-695.9745136964
 10
729.7070747498
 20
-699.6056709844
 10
722.8118035985
 20
-702.9415899861
 10
715.9410150248
 20
-705.9779708596
 10
709.1035651503
 20
-708.7108998535
 10
702.3082671245
 20
-711.1368543517
 10
695.5638797652
 20
-713.2527074134
 10
688.879096269
 20
-715.0557318041
 10
682.2625330055
 20
-716.5436035107
 10
675.722718412
 20
-717.7144047369
 10
669.2680820001
 20
-718.5666263752
 10
662.9069434912
 20
-719.0991699523
 10
656.6475020918
 20
-719.3113490446
 10
650.4978259259
 20
-719.2028901634
 10
644.4658416354
 20
-718.7739331071
 10
638.5593241628
 20
-718.0250307809
 10
632.7858867297
 20
-716.9571484846
 10
627.152971024
 20
-715.571662668
 10
621.6678376078
 20
-713.8703591567
 10
616.3375565585
 20
-711.8554308506
 10
611.1689983565
 20
-709.5294748969
 10
606.1688250288
 20
-706.8954893429
 10
601.3434815624
 20
-703.9568692714
 10
596.6991875969
 20
-700.7174024247
 10
592.2419294076
 20
-697.1812643224
 10
587.9774521895
 20
-693.3530128793
 10
583.9112526521
 20
-689.2375825306
 10
580.0485719344
 20
-684.8402778712
 10
576.394388849
 20
-680.166766819
 10
572.9534134653
 20
-675.2230733088
 10
569.7300810378
 20
-670.0155695276
 10
566.7285462895
 20
-664.5509677017
 10
563.9526780568
 20
-658.8363114443
 10
561.4060543027
 20
-652.8789666772
 10
559.0919575046
 20
-646.6866121361
 10
557.0133704241
 20
-640.2672294731
 10
555.1729722614
 20
-633.629092969
 10
553.5731352028
 20
-626.7807588677
 10
552.2159213627
 20
-619.7310543483
 10
551.1030801254
 20
-612.4890661463
 10
550.8466096724
 20
-610.5171945723
  0
LWPOLYLINE
  5
BB
330
1F
100
AcDbEntity
  8
0
  6
Continuous
 62
     7
370
    25
100
AcDbPolyline
 90
       90
 70
   128
 43
0.0
 10
838.4879805225
 20
-261.1919752632
 10
841.781684249
 20
-262.1294072828
 10
846.7975689591
 20
-263.8528909654
 10
851.6535687768
 20
-265.8911445533
 10
856.3422888156
 20
-268.2410641224
 10
860.8565889281
 20
-270.899071133
 10
865.18959458
 20
-273.8611178787
 10
869.3347073184
 20
-277.122693651
 10
873.2856148203
 20
-280.678831608
 10
877.0363005053
 20
-284.5241163381
 10
880.5810526978
 20
-288.652692107
 10
883.9144733249
 20
-293.0582717748
 10
887.0314861368
 20
-297.7341463703
 10
889.9273444373
 20
-302.6731953079
 10
892.5976383117
 20
-307.8678972308
 10
895.038301343
 20
-313.3103414647
 10
897.2456168039
 20
-318.9922400649
 10
899.2162233172
 20
-324.9049404369
 10
900.9471199741
 20
-331.0394385136
 10
902.4356709045
 20
-337.3863924661
 10
903.679609291
 20
-343.9361369305
 10
904.6770408206
 20
-350.6786977265
 10
905.4264465695
 20
-357.603807046
 10
905.9266853164
 20
-364.7009190901
 10
906.1769952803
 20
-371.9592261275
 10
906.1769952803
 20
-379.3676749541
 10
905.9266853164
 20
-386.9149837243
 10
905.4264465695
 20
-394.5896591317
 10
904.6770408206
 20
-402.3800139117
 10
903.679609291
 20
-410.274184639
 10
902.4356709045
 20
-418.2601497936
 10
900.9471199741
 20
-426.3257480681
 10
899.2162233172
 20
-434.4586968866
 10
897.2456168039
 20
-442.6466111096
 10
895.038301343
 20
-450.8770218943
 10
892.5976383117
 20
-459.1373956828
 10
889.9273444373
 20
-467.4151532884
 10
887.0314861368
 20
-475.6976890515
 10
883.9144733249
 20
-483.9723900366
 10
880.5810526978
 20
-492.2266552389
 10
877.0363005053
 20
-500.447914774
 10
873.2856148203
 20
-508.6236490198
 10
869.3347073184
 20
-516.7414076816
 10
865.18959458
 20
-524.788828752
 10
860.8565889281
 20
-532.7536573362
 10
856.3422888156
 20
-540.6237643141
 10
851.6535687768
 20
-548.3871648108
 10
846.797568959
 20
-556.0320364481
 10
841.781684249
 20
-563.5467373474
 10
836.6135530117
 20
-570.9198238589
 10
831.3010454585
 20
-578.1400679879
 10
825.8522516622
 20
-585.1964744938
 10
820.2754692368
 20
-592.0782976332
 10
814.5791907022
 20
-598.7750575248
 10
808.7720905509
 20
-605.2765561078
 10
802.8630120386
 20
-611.5728926724
 10
796.8609537171
 20
-617.6544789366
 10
790.7750557313
 20
-623.5120536476
 10
784.6145858998
 20
-629.1366966854
 10
778.388925602
 20
-634.5198426465
 10
772.1075554917
 20
-639.6532938873
 10
765.7800410594
 20
-644.5292330087
 10
759.4160180659
 20
-649.1402347594
 10
753.0251778684
 20
-653.4792773445
 10
746.6172526623
 20
-657.5397531178
 10
740.2020006608
 20
-661.3154786445
 10
733.7891912344
 20
-664.8007041174
 10
727.3885900342
 20
-667.990122113
 10
721.0099441198
 20
-670.8788756739
 10
714.662967117
 20
-673.4625657048
 10
708.3573244248
 20
-675.7372576721
 10
702.1026184967
 20
-677.699487595
 10
695.9083742183
 20
-679.3462673211
 10
689.7840244019
 20
-680.6750890764
 10
683.7388954219
 20
-681.6839292847
 10
677.7821930126
 20
-682.3712516487
 10
671.9229882494
 20
-682.7360094898
 10
666.1702037344
 20
-682.777647342
 10
660.5326000097
 20
-682.4961017978
 10
655.0187622158
 20
-681.8918016045
 10
649.637087018
 20
-680.9656670116
 10
644.3957698201
 20
-679.7191083694
 10
639.3027922836
 20
-678.1540239811
 10
634.365910173
 20
-676.272797212
 10
629.5926415457
 20
-674.0782928602
 10
624.9902553023
 20
-671.5738527938
 10
620.5657601178
 20
-668.7632908619
 10
616.3258937687
 20
-665.6508870868
 10
612.277112872
 20
-662.241381146
 10
608.8528389242
 20
-658.9748083131
  0
LWPOLYLINE
  5
BC
330
1F
100
AcDbEntity
  8
0
  6
Continuous
 62
     7
370
    25
100
AcDbPolyline
 90
      160
 70
   128
 43
0.0
 10
530.3810387619
 20
-532.1916382154
 10
530.5052458831
 20
-524.8617150782
 10
530.8776733123
 20
-517.3998302562
 10
531.4977395481
 20
-509.8176345966
 10
532.3644764307
 20
-502.126966798
 10
533.4765306534
 20
-494.3398349252
 10
534.8321658755
 20
-486.4683976602
 10
536.4292654335
 20
-478.524945318
 10
538.2653356461
 20
-470.5218806564
 10
540.3375097076
 20
-462.4716995108
 10
542.6425521641
 20
-454.3869712835
 10
545.1768639656
 20
-446.280319318
 10
547.9364880849
 20
-438.1644011889
 10
550.9171156966
 20
-430.0518889389
 10
554.1140929045
 20
-421.9554492931
 10
557.5224280081
 20
-413.8877238806
 10
561.1367992969
 20
-405.8613094972
 10
564.9515633591
 20
-397.888738436
 10
568.9607638934
 20
-389.9824589204
 10
573.1581410092
 20
-382.1548156673
 10
577.5371410003
 20
-374.4180306124
 10
582.090926578
 20
-366.7841838272
 10
586.8123875468
 20
-359.2651946573
 10
591.6941519059
 20
-351.8728031116
 10
596.7285973596
 20
-344.6185515321
 10
601.907863219
 20
-337.5137665715
 10
607.2238626754
 20
-330.569541508
 10
612.6682954265
 20
-323.7967189249
 10
618.232660637
 20
-317.2058737805
 10
623.908270211
 20
-310.8072968972
 10
629.6862623581
 20
-304.6109788933
 10
635.5576154293
 20
-298.6265945837
 10
641.5131620038
 20
-292.8634878741
 10
647.5436032026
 20
-287.3306571717
 10
653.6395232075
 20
-282.0367413347
 10
659.7914039633
 20
-276.9900061842
 10
665.9896400382
 20
-272.1983315982
 10
672.2245536225
 20
-267.6691992076
 10
678.4864096387
 20
-263.4096807152
 10
684.765430942
 20
-259.4264268533
 10
691.051813586
 20
-255.7256570001
 10
697.3357421305
 20
-252.3131494683
 10
703.6074049668
 20
-249.1942324834
 10
709.8570096381
 20
-246.3737758639
 10
716.0747981285
 20
-243.8561834182
 10
722.2510620994
 20
-241.645386068
 10
728.3761580477
 20
-239.7448357109
 10
734.4405223632
 20
-238.1574998306
 10
740.4346862609
 20
-236.8858568637
 10
746.3492905655
 20
-235.9318923297
 10
752.1751003244
 20
-235.2970957311
 10
757.9030192273
 20
-234.9824582274
 10
763.5241038087
 20
-234.9884710876
 10
769.0295774123
 20
-235.3151249234
 10
774.4108438947
 20
-235.9619097036
 10
779.6595010469
 20
-236.9278155506
 10
784.767353714
 20
-238.211334317
 10
789.7264265903
 20
-239.8104619407
 10
794.5289766722
 20
-241.7227015737
 10
799.1675053478
 20
-243.9450674808
 10
803.6347701053
 20
-246.4740897014
 10
807.923795841
 20
-249.3058194676
 10
812.0278857504
 20
-252.4358353694
 10
815.9406317843
 20
-255.8592502587
 10
819.6559246541
 20
-259.5707188794
 10
823.1679633712
 20
-263.5644462138
 10
826.4712643039
 20
-267.8341965309
 10
829.56066974
 20
-272.3733031223
 10
832.4313559397
 20
-277.174678712
 10
835.0788406671
 20
-282.2308265218
 10
837.4989901892
 20
-287.5338519773
 10
839.6880257299
 20
-293.0754750336
 10
841.6425293698
 20
-298.8470431042
 10
843.3594493837
 20
-304.8395445707
 10
844.8361050047
 20
-311.0436228533
 10
846.0701906104
 20
-317.4495910204
 10
847.0597793225
 20
-324.047446913
 10
847.8033260159
 20
-330.8268887624
 10
848.2996697305
 20
-337.7773312749
 10
848.5480354847
 20
-344.8879221596
 10
848.5480354847
 20
-352.1475590729
 10
848.2996697305
 20
-359.5449069535
 10
847.8033260159
 20
-367.0684157209
 10
847.0597793225
 20
-374.7063383091
 10
846.0701906104
 20
-382.4467490088
 10
844.8361050047
 20
-390.2775620875
 10
843.3594493837
 20
-398.1865506601
 10
841.6425293698
 20
-406.1613657799
 10
839.6880257299
 20
-414.1895557196
 10
837.4989901892
 20
-422.2585854138
 10
835.0788406671
 20
-430.3558560303
 10
832.4313559397
 20
-438.4687246423
 10
829.56066974
 20
-446.5845239686
 10
826.4712643039
 20
-454.6905821519
 10
823.1679633712
 20
-462.7742425445
 10
819.6559246541
 20
-470.8228834704
 10
815.9406317843
 20
-478.8239379323
 10
812.0278857504
 20
-486.7649132332
 10
807.923795841
 20
-494.633410483
 10
803.6347701053
 20
-502.4171439573
 10
799.1675053478
 20
-510.1039602802
 10
794.5289766722
 20
-517.6818574005
 10
789.7264265903
 20
-525.1390033313
 10
784.767353714
 20
-532.4637546246
 10
779.6595010469
 20
-539.6446745508
 10
774.4108438947
 20
-546.6705509557
 10
769.0295774123
 20
-553.5304137673
 10
763.5241038087
 20
-560.2135521243
 10
757.9030192273
 20
-566.7095310994
 10
752.1751003244
 20
-573.0082079925
 10
746.3492905655
 20
-579.0997481674
 10
740.4346862609
 20
-584.9746404073
 10
734.4405223632
 20
-590.6237117652
 10
728.3761580477
 20
-596.0381418868
 10
722.2510620994
 20
-601.2094767823
 10
716.0747981285
 20
-606.129642026
 10
709.8570096381
 20
-610.790955364
 10
703.6074049668
 20
-615.1861387088
 10
697.3357421305
 20
-619.3083295035
 10
691.051813586
 20
-623.1510914363
 10
684.765430942
 20
-626.7084244908
 10
678.4864096387
 20
-629.9747743135
 10
672.2245536225
 20
-632.9450408871
 10
665.9896400382
 20
-635.6145864928
 10
659.7914039633
 20
-637.9792429521
 10
653.6395232075
 20
-640.0353181347
 10
647.5436032026
 20
-641.7796017231
 10
641.5131620038
 20
-643.2093702256
 10
635.5576154293
 20
-644.3223912285
 10
629.6862623581
 20
-645.1169268816
 10
623.908270211
 20
-645.5917366117
 10
618.232660637
 20
-645.7460790598
 10
612.6682954265
 20
-645.5797132386
 10
607.2238626754
 20
-645.0928989084
 10
601.907863219
 20
-644.2863961722
 10
596.7285973596
 20
-643.1614642881
 10
591.6941519059
 20
-641.7198597038
 10
586.8123875468
 20
-639.9638333137
 10
582.090926578
 20
-637.8961269445
 10
577.5371410003
 20
-635.5199690743
 10
573.1581410092
 20
-632.8390697916
 10
568.9607638934
 20
-629.8576150023
 10
564.9515633591
 20
-626.5802598942
 10
561.1367992969
 20
-623.0121216682
 10
557.5224280081
 20
-619.1587715486
 10
554.1140929045
 20
-615.0262260842
 10
550.9171156966
 20
-610.6209377542
 10
547.9364880849
 20
-605.9497848934
 10
545.1768639656
 20
-601.0200609524
 10
542.6425521641
 20
-595.8394631099
 10
540.3375097076
 20
-590.4160802547
 10
538.2653356461
 20
-584.7583803551
 10
536.4292654335
 20
-578.875197238
 10
534.8321658755
 20
-572.7757167954
 10
533.4765306534
 20
-566.469462642
 10
532.3644764307
 20
-559.9662812451
 10
531.4977395481
 20
-553.2763265504
 10
530.8776733123
 20
-546.410044128
 10
530.5052458831
 20
-539.3781548629
 10
530.3810387619
 20
-532.1916382154
  0
LWPOLYLINE
  5
BD
330
1F
100
AcDbEntity
  8
0
  6
Continuous
 62
     7
370
    25
100
AcDbPolyline
 90
      145
 70
   128
 43
0.0
 10
559.3017061124
 20
-515.4960923287
 10
559.4256070644
 20
-508.8674742955
 10
559.7970740681
 20
-502.1084212192
 10
560.4154000148
 20
-495.2317993414
 10
561.2794078859
 20
-488.2506987029
 10
562.3874529934
 20
-481.1784082254
 10
563.7374261105
 20
-474.0283904158
 10
565.3267574865
 20
-466.8142557394
 10
567.1524217389
 20
-459.5497367116
 10
569.210943612
 20
-452.2486617572
 10
571.4984045924
 20
-444.9249288874
 10
574.0104503681
 20
-437.5924792439
 10
576.7422991172
 20
-430.2652705614
 10
579.6887506104
 20
-422.9572505981
 10
582.8441961098
 20
-415.6823305853
 10
586.2026290455
 20
-408.4543587468
 10
589.7576564496
 20
-401.2870939377
 10
593.5025111252
 20
-394.194179454
 10
597.4300645288
 20
-387.1891170615
 10
601.5328403392
 20
-380.2852412947
 10
605.8030286894
 20
-373.4956940735
 10
610.2325010332
 20
-366.8333996868
 10
614.8128256183
 20
-360.3110401908
 10
619.5352835365
 20
-353.9410312673
 10
624.3908853206
 20
-347.7354985905
 10
629.3703880568
 20
-341.7062547446
 10
634.4643129786
 20
-335.8647767377
 10
639.6629635104
 20
-330.2221841554
 10
644.9564437253
 20
-324.7892179933
 10
650.3346771831
 20
-319.5762202113
 10
655.7874261105
 20
-314.593114047
 10
661.3043108901
 20
-309.8493851262
 10
666.8748298182
 20
-305.3540634064
 10
672.4883790953
 20
-301.1157059881
 10
678.1342730114
 20
-297.1423808255
 10
683.8017642865
 20
-293.441651369
 10
689.4800645288
 20
-290.0205621672
 10
695.1583647712
 20
-286.8856254581
 10
700.8258560463
 20
-284.0428087717
 10
706.4717499624
 20
-281.4975235713
 10
712.0852992395
 20
-279.2546149518
 10
717.6558181676
 20
-277.3183524174
 10
723.1727029472
 20
-275.6924217537
 10
728.6254518746
 20
-274.3799180123
 10
734.0036853323
 20
-273.3833396185
 10
739.2971655473
 20
-272.7045836161
 10
744.4958160791
 20
-272.3449420555
 10
749.5897410008
 20
-272.3050995351
 10
754.5692437371
 20
-272.5851318973
 10
759.4248455212
 20
-273.1845060845
 10
764.1473034394
 20
-274.102081154
 10
768.7276280244
 20
-275.3361104494
 10
773.1571003683
 20
-276.8842449258
 10
777.4272887185
 20
-278.7435376213
 10
781.5300645288
 20
-280.9104492666
 10
785.4576179324
 20
-283.3808550221
 10
789.2024726081
 20
-286.1500523302
 10
792.7575000122
 20
-289.2127698663
 10
796.1159329479
 20
-292.5631775736
 10
799.2713784472
 20
-296.1948977605
 10
802.2178299404
 20
-300.1010172412
 10
804.9496786896
 20
-304.2741004954
 10
807.4617244653
 20
-308.7062038218
 10
809.7491854457
 20
-313.3888904599
 10
811.8077073188
 20
-318.3132466495
 10
813.6333715712
 20
-323.4698985988
 10
815.2227029472
 20
-328.8490303275
 10
816.5726760642
 20
-334.4404023529
 10
817.6807211718
 20
-340.2333711804
 10
818.5447290429
 20
-346.2169095646
 10
819.1630549896
 20
-352.3796275002
 10
819.5345219932
 20
-358.7097939032
 10
819.6584229453
 20
-365.1953589421
 10
819.5345219932
 20
-371.8239769753
 10
819.1630549896
 20
-378.5830300516
 10
818.5447290429
 20
-385.4596519293
 10
817.6807211718
 20
-392.4407525679
 10
816.5726760642
 20
-399.5130430454
 10
815.2227029472
 20
-406.663060855
 10
813.6333715712
 20
-413.8771955314
 10
811.8077073188
 20
-421.1417145592
 10
809.7491854457
 20
-428.4427895136
 10
807.4617244653
 20
-435.7665223834
 10
804.9496786896
 20
-443.0989720269
 10
802.2178299404
 20
-450.4261807094
 10
799.2713784472
 20
-457.7342006727
 10
796.1159329479
 20
-465.0091206855
 10
792.7575000122
 20
-472.237092524
 10
789.2024726081
 20
-479.4043573331
 10
785.4576179324
 20
-486.4972718168
 10
781.5300645288
 20
-493.5023342092
 10
777.4272887185
 20
-500.406209976
 10
773.1571003683
 20
-507.1957571973
 10
768.7276280244
 20
-513.858051584
 10
764.1473034394
 20
-520.38041108
 10
759.4248455212
 20
-526.7504200034
 10
754.5692437371
 20
-532.9559526802
 10
749.5897410008
 20
-538.9851965262
 10
744.4958160791
 20
-544.8266745331
 10
739.2971655473
 20
-550.4692671154
 10
734.0036853323
 20
-555.9022332774
 10
728.6254518746
 20
-561.1152310594
 10
723.1727029472
 20
-566.0983372238
 10
717.6558181676
 20
-570.8420661446
 10
712.0852992395
 20
-575.3373878644
 10
706.4717499624
 20
-579.5757452827
 10
700.8258560463
 20
-583.5490704452
 10
695.1583647712
 20
-587.2497999018
 10
689.4800645288
 20
-590.6708891036
 10
683.8017642865
 20
-593.8058258127
 10
678.1342730114
 20
-596.6486424991
 10
672.4883790953
 20
-599.1939276995
 10
666.8748298181
 20
-601.436836319
 10
661.3043108901
 20
-603.3730988534
 10
655.7874261105
 20
-604.9990295171
 10
650.3346771831
 20
-606.3115332585
 10
644.9564437253
 20
-607.3081116523
 10
639.6629635104
 20
-607.9868676547
 10
634.4643129786
 20
-608.3465092152
 10
629.3703880568
 20
-608.3863517357
 10
624.3908853206
 20
-608.1063193735
 10
619.5352835364
 20
-607.5069451863
 10
614.8128256183
 20
-606.5893701168
 10
610.2325010332
 20
-605.3553408214
 10
605.8030286894
 20
-603.807206345
 10
601.5328403392
 20
-601.9479136494
 10
597.4300645288
 20
-599.7810020042
 10
593.5025111252
 20
-597.3105962486
 10
589.7576564496
 20
-594.5413989406
 10
586.2026290455
 20
-591.4786814045
 10
582.8441961098
 20
-588.1282736972
 10
579.6887506104
 20
-584.4965535103
 10
576.7422991172
 20
-580.5904340296
 10
574.0104503681
 20
-576.4173507754
 10
571.4984045924
 20
-571.985247449
 10
569.210943612
 20
-567.3025608109
 10
567.1524217389
 20
-562.3782046213
 10
565.3267574865
 20
-557.221552672
 10
563.7374261105
 20
-551.8424209432
 10
562.3874529934
 20
-546.2510489179
 10
561.2794078859
 20
-540.4580800904
 10
560.4154000148
 20
-534.4745417062
 10
559.7970740681
 20
-528.3118237706
 10
559.4256070644
 20
-521.9816573676
 10
559.3017061124
 20
-515.4960923287
  0
LWPOLYLINE
  5
BE
330
1F
100
AcDbEntity
  8
0
  6
Continuous
 62
     7
370
    25
100
AcDbPolyline
 90
       82
 70
   128
 43
0.0
 10
830.2551931979
 20
-261.8128938362
 10
831.9190413528
 20
-262.8022519378
 10
836.2080670885
 20
-265.633981704
 10
840.3121569979
 20
-268.7639976059
 10
844.2249030317
 20
-272.1874124951
 10
847.9401959016
 20
-275.8988811158
 10
851.4522346186
 20
-279.8926084503
 10
854.7555355514
 20
-284.1623587674
 10
857.8449409875
 20
-288.7014653588
 10
860.7156271871
 20
-293.5028409484
 10
863.3631119146
 20
-298.5589887583
 10
865.7832614367
 20
-303.8620142138
 10
867.9722969773
 20
-309.4036372701
 10
869.9268006173
 20
-315.1752053407
 10
871.6437206311
 20
-321.1677068071
 10
873.1203762522
 20
-327.3717850898
 10
874.3544618578
 20
-333.7777532568
 10
875.34405057
 20
-340.3756091494
 10
876.0875972633
 20
-347.1550509988
 10
876.583940978
 20
-354.1054935113
 10
876.8323067321
 20
-361.216084396
 10
876.8323067321
 20
-368.4757213093
 10
876.583940978
 20
-375.8730691899
 10
876.0875972633
 20
-383.3965779573
 10
875.34405057
 20
-391.0345005456
 10
874.3544618578
 20
-398.7749112453
 10
873.1203762522
 20
-406.605724324
 10
871.6437206311
 20
-414.5147128966
 10
869.9268006173
 20
-422.4895280163
 10
867.9722969773
 20
-430.5177179561
 10
865.7832614367
 20
-438.5867476502
 10
863.3631119146
 20
-446.6840182667
 10
860.7156271871
 20
-454.7968868788
 10
857.8449409875
 20
-462.9126862051
 10
854.7555355514
 20
-471.0187443883
 10
851.4522346186
 20
-479.102404781
 10
847.9401959016
 20
-487.1510457069
 10
844.2249030317
 20
-495.1521001687
 10
840.3121569979
 20
-503.0930754697
 10
836.2080670885
 20
-510.9615727195
 10
831.9190413528
 20
-518.7453061938
 10
827.4517765953
 20
-526.4321225166
 10
822.8132479197
 20
-534.0100196369
 10
818.0106978378
 20
-541.4671655678
 10
813.0516249615
 20
-548.7919168611
 10
807.9437722944
 20
-555.9728367872
 10
802.6951151421
 20
-562.9987131921
 10
797.3138486598
 20
-569.8585760038
 10
791.8083750562
 20
-576.5417143608
 10
786.1872904748
 20
-583.0376933358
 10
780.4593715719
 20
-589.336370229
 10
774.633561813
 20
-595.4279104039
 10
768.7189575084
 20
-601.3028026437
 10
762.7247936107
 20
-606.9518740016
 10
756.6604292951
 20
-612.3663041233
 10
750.5353333468
 20
-617.5376390187
 10
744.359069376
 20
-622.4578042624
 10
738.1412808856
 20
-627.1191176004
 10
731.8916762143
 20
-631.5143009453
 10
725.6200133779
 20
-635.6364917399
 10
719.3360848335
 20
-639.4792536728
 10
713.0497021895
 20
-643.0365867272
 10
706.7706808862
 20
-646.30293655
 10
700.50882487
 20
-649.2732031236
 10
694.2739112857
 20
-651.9427487293
 10
688.0756752107
 20
-654.3074051886
 10
681.923794455
 20
-656.3634803711
 10
675.82787445
 20
-658.1077639595
 10
669.7974332513
 20
-659.5375324621
 10
663.8418866768
 20
-660.650553465
 10
657.9705336056
 20
-661.445089118
 10
652.1925414585
 20
-661.9198988481
 10
646.5169318844
 20
-662.0742412963
 10
640.9525666739
 20
-661.907875475
 10
635.5081339228
 20
-661.4210611449
 10
630.1921344665
 20
-660.6145584086
 10
625.012868607
 20
-659.4896265245
 10
619.9784231533
 20
-658.0480219402
 10
615.0966587943
 20
-656.2919955501
 10
610.3751978255
 20
-654.2242891809
 10
605.8214122477
 20
-651.8481313108
 10
605.2734783547
 20
-651.5348819075
  0
LWPOLYLINE
  5
BF
330
1F
100
AcDbEntity
  8
0
  6
Continuous
 62
     7
370
    25
100
AcDbPolyline
 90
       46
 70
   128
 43
0.0
 10
632.2044152527
 20
-557.5819304931
 10
632.3283162048
 20
-550.9533124599
 10
632.6997832084
 20
-544.1942593836
 10
633.3181091551
 20
-537.3176375059
 10
634.1821170263
 20
-530.3365368674
 10
635.2901621338
 20
-523.2642463899
 10
636.6401352508
 20
-516.1142285803
 10
638.2294666268
 20
-508.9000939039
 10
640.0551308792
 20
-501.635574876
 10
642.1136527523
 20
-494.3344999216
 10
644.4011137327
 20
-487.0107670518
 10
646.9131595084
 20
-479.6783174083
 10
649.6450082576
 20
-472.3511087259
 10
652.5914597508
 20
-465.0430887625
 10
655.7469052502
 20
-457.7681687498
 10
659.1053381859
 20
-450.5401969112
 10
662.6603655899
 20
-443.3729321021
 10
666.4052202656
 20
-436.2800176185
 10
670.3327736692
 20
-429.274955226
 10
674.4355494795
 20
-422.3710794592
 10
678.7057378297
 20
-415.5815322379
 10
683.1352101736
 20
-408.9192378513
 10
687.7155347586
 20
-402.3968783552
 10
692.4379926768
 20
-396.0268694318
 10
697.2935944609
 20
-389.821336755
 10
702.2730971972
 20
-383.792092909
 10
707.367022119
 20
-377.9506149022
 10
712.5656726507
 20
-372.3080223199
 10
717.8591528657
 20
-366.8750561578
 10
723.2373863234
 20
-361.6620583758
 10
728.6901352508
 20
-356.6789522115
 10
734.2070200304
 20
-351.9352232906
 10
739.7775389585
 20
-347.4399015709
 10
745.3910882356
 20
-343.2015441526
 10
751.0369821517
 20
-339.22821899
 10
756.7044734268
 20
-335.5274895334
 10
762.3827736692
 20
-332.1064003317
 10
768.0610739115
 20
-328.9714636225
 10
773.7285651866
 20
-326.1286469362
 10
779.3744591027
 20
-323.5833617357
 10
784.9880083799
 20
-321.3404531163
 10
790.5585273079
 20
-319.4041905818
 10
796.0754120875
 20
-317.7782599182
 10
801.5281610149
 20
-316.4657561767
 10
806.9063944727
 20
-315.469177783
 10
810.4509786622
 20
-314.9806097053
  0
LWPOLYLINE
  5
C0
330
1F
100
AcDbEntity
  8
0
  6
Continuous
 62
     7
370
    25
100
AcDbPolyline
 90
       10
 70
   128
 43
0.0
 10
641.4118595358
 20
-607.7966797299
 10
640.0551308792
 20
-604.4640427857
 10
638.2294666268
 20
-599.3073908365
 10
636.6401352508
 20
-593.9282591077
 10
635.2901621338
 20
-588.3368870823
 10
634.1821170263
 20
-582.5439182548
 10
633.3181091551
 20
-576.5603798706
 10
632.6997832084
 20
-570.3976619351
 10
632.3283162048
 20
-564.0674955321
 10
632.2044152527
 20
-557.5819304931
  0
LWPOLYLINE
  5
C1
330
1F
100
AcDbEntity
  8
0
  6
Continuous
 62
     7
370
    25
100
AcDbPolyline
 90
       37
 70
   128
 43
0.0
 10
632.8008831165
 20
-571.6114355591
 10
633.329352966
 20
-565.4443440202
 10
634.2024363129
 20
-557.7896494865
 10
635.3225732687
 20
-550.0383973821
 10
636.687970035
 20
-542.2030006378
 10
638.2964400522
 20
-534.2960069342
 10
640.1454075007
 20
-526.3300786081
 10
642.2319114261
 20
-518.3179723748
 10
644.5526104807
 20
-510.2725188991
 10
647.1037882743
 20
-502.2066022487
 10
649.881359326
 20
-494.1331392612
 10
652.8808756064
 20
-486.0650588587
 10
656.097533661
 20
-478.0152813438
 10
659.5261823022
 20
-469.9966977088
 10
663.1613308587
 20
-462.0221489915
 10
666.9971579681
 20
-454.104405712
 10
671.0275208996
 20
-446.2561474214
 10
675.2459653906
 20
-438.4899423972
 10
679.6457359831
 20
-430.8182275156
 10
684.2197868416
 20
-423.2532883356
 10
688.9607930364
 20
-415.8072394246
 10
693.8611622741
 20
-408.4920049579
 10
698.9130470556
 20
-401.319299623
 10
704.1083572434
 20
-394.3006098604
 10
709.4387730171
 20
-387.4471754681
 10
714.8957581971
 20
-380.7699716027
 10
720.470573914
 20
-374.2796912036
 10
726.1542926036
 20
-367.986727869
 10
731.9378123035
 20
-361.9011592118
 10
737.8118712289
 20
-356.0327307209
 10
743.7670626046
 20
-350.3908401548
 10
749.793849729
 20
-344.984522492
 10
755.8825812466
 20
-339.8224354624
 10
762.0235066034
 20
-334.9128456824
 10
768.2067916617
 20
-330.2636154169
 10
774.4225344486
 20
-325.8821899886
 10
774.8091479125
 20
-325.6192520723
  0
ENDSEC
  0
SECTION
  2
OBJECTS
  0
DICTIONARY
  5
C
330
0
100
AcDbDictionary
281
     1
  3
ACAD_GROUP
350
D
  3
ACAD_LAYOUT
350
1A
  3
ACAD_MLINESTYLE
350
17
  3
ACAD_PLOTSETTINGS
350
19
  3
ACAD_PLOTSTYLENAME
350
E
  3
ACAD_SCALELIST
350
47
  0
DICTIONARY
  5
D
102
{ACAD_REACTORS
330
C
102
}
330
C
100
AcDbDictionary
281
     1
  0
DICTIONARY
  5
1A
102
{ACAD_REACTORS
330
C
102
}
330
C
100
AcDbDictionary
281
     1
  3
Layout1
350
1E
  3
Layout2
350
26
  3
Model
350
22
  0
DICTIONARY
  5
17
102
{ACAD_REACTORS
330
C
102
}
330
C
100
AcDbDictionary
281
     1
  3
Standard
350
18
  0
DICTIONARY
  5
19
102
{ACAD_REACTORS
330
C
102
}
330
C
100
AcDbDictionary
281
     1
  0
ACDBDICTIONARYWDFLT
  5
E
102
{ACAD_REACTORS
330
C
102
}
330
C
100
AcDbDictionary
281
     1
  3
Normal
350
F
100
AcDbDictionaryWithDefault
340
F
  0
DICTIONARY
  5
47
102
{ACAD_REACTORS
330
C
102
}
330
C
100
AcDbDictionary
281
     1
  3
A0
350
48
  3
A1
350
49
  3
A2
350
4A
  3
A3
350
4B
  3
A4
350
4C
  3
A5
350
4D
  3
A6
350
4E
  3
A7
350
4F
  3
A8
350
50
  3
A9
350
51
  3
B0
350
52
  3
B1
350
53
  3
B2
350
54
  3
B3
350
55
  3
B4
350
56
  3
B5
350
57
  3
B6
350
58
  3
B7
350
59
  3
B8
350
5A
  3
B9
350
5B
  3
C0
350
5C
  3
C1
350
5D
  3
C2
350
5E
  3
C3
350
5F
  3
C4
350
60
  3
C5
350
61
  3
C6
350
62
  3
C7
350
63
  3
C8
350
64
  3
C9
350
65
  3
D0
350
66
  3
D1
350
67
  3
D2
350
68
  0
LAYOUT
  5
1E
102
{ACAD_REACTORS
330
1A
102
}
330
1A
100
AcDbPlotSettings
  1

  2
none_device
  4

  6

 40
0.0
 41
0.0
 42
0.0
 43
0.0
 44
0.0
 45
0.0
 46
0.0
 47
0.0
 48
0.0
 49
0.0
140
0.0
141
0.0
142
1.0
143
1.0
 70
   688
 72
     1
 73
     0
 74
     5
  7

 75
    16
147
1.0
148
0.0
149
0.0
100
AcDbLayout
  1
Layout1
 70
     1
 71
     1
 10
0.0
 20
0.0
 11
420.0
 21
297.0
 12
0.0
 22
0.0
 32
0.0
 14
1.0000000000E+20
 24
1.0000000000E+20
 34
1.0000000000E+20
 15
-1.0000000000E+20
 25
-1.0000000000E+20
 35
-1.0000000000E+20
146
0.0
 13
0.0
 23
0.0
 33
0.0
 16
1.0
 26
0.0
 36
0.0
 17
0.0
 27
1.0
 37
0.0
 76
     0
330
1B
  0
LAYOUT
  5
26
102
{ACAD_REACTORS
330
1A
102
}
330
1A
100
AcDbPlotSettings
  1

  2
none_device
  4

  6

 40
0.0
 41
0.0
 42
0.0
 43
0.0
 44
0.0
 45
0.0
 46
0.0
 47
0.0
 48
0.0
 49
0.0
140
0.0
141
0.0
142
1.0
143
1.0
 70
   688
 72
     1
 73
     0
 74
     5
  7

 75
    16
147
1.0
148
0.0
149
0.0
100
AcDbLayout
  1
Layout2
 70
     1
 71
     2
 10
0.0
 20
0.0
 11
0.0
 21
0.0
 12
0.0
 22
0.0
 32
0.0
 14
0.0
 24
0.0
 34
0.0
 15
0.0
 25
0.0
 35
0.0
146
0.0
 13
0.0
 23
0.0
 33
0.0
 16
1.0
 26
0.0
 36
0.0
 17
0.0
 27
1.0
 37
0.0
 76
     0
330
23
  0
LAYOUT
  5
22
102
{ACAD_REACTORS
330
1A
102
}
330
1A
100
AcDbPlotSettings
  1

  2
none_device
  4
Letter_(8.50_x_11.00_Inches)
  6

 40
6.35
 41
6.35
 42
6.35000508
 43
6.35000508
 44
215.9
 45
279.4
 46
0.0
 47
0.0
 48
0.0
 49
0.0
140
0.0
141
0.0
142
1.0
143
1.0
 70
  1712
 72
     1
 73
     0
 74
     0
  7

 75
     0
147
1.0
148
0.0
149
0.0
100
AcDbLayout
  1
Model
 70
     1
 71
     0
 10
0.0
 20
0.0
 11
279.4
 21
215.9
 12
0.0
 22
0.0
 32
0.0
 14
0.0
 24
0.0
 34
0.0
 15
279.4
 25
215.9
 35
0.0
146
0.0
 13
0.0
 23
0.0
 33
0.0
 16
1.0
 26
0.0
 36
0.0
 17
0.0
 27
1.0
 37
0.0
 76
     0
330
1F
331
29
  0
MLINESTYLE
  5
18
102
{ACAD_REACTORS
330
17
102
}
330
17
100
AcDbMlineStyle
  2
Standard
 70
     0
  3

 62
   256
 51
90.0
 52
90.0
 71
     2
 49
0.5
 62
   256
  6
BYLAYER
 49
-0.5
 62
   256
  6
BYLAYER
  0
ACDBPLACEHOLDER
  5
F
102
{ACAD_REACTORS
330
E
102
}
330
E
  0
SCALE
  5
48
102
{ACAD_REACTORS
330
47
102
}
330
47
100
AcDbScale
 70
     0
300
1:1
140
1.0
141
1.0
290
     1
  0
SCALE
  5
49
102
{ACAD_REACTORS
330
47
102
}
330
47
100
AcDbScale
 70
     0
300
1:2
140
1.0
141
2.0
290
     0
  0
SCALE
  5
4A
102
{ACAD_REACTORS
330
47
102
}
330
47
100
AcDbScale
 70
     0
300
1:4
140
1.0
141
4.0
290
     0
  0
SCALE
  5
4B
102
{ACAD_REACTORS
330
47
102
}
330
47
100
AcDbScale
 70
     0
300
1:5
140
1.0
141
5.0
290
     0
  0
SCALE
  5
4C
102
{ACAD_REACTORS
330
47
102
}
330
47
100
AcDbScale
 70
     0
300
1:8
140
1.0
141
8.0
290
     0
  0
SCALE
  5
4D
102
{ACAD_REACTORS
330
47
102
}
330
47
100
AcDbScale
 70
     0
300
1:10
140
1.0
141
10.0
290
     0
  0
SCALE
  5
4E
102
{ACAD_REACTORS
330
47
102
}
330
47
100
AcDbScale
 70
     0
300
1:16
140
1.0
141
16.0
290
     0
  0
SCALE
  5
4F
102
{ACAD_REACTORS
330
47
102
}
330
47
100
AcDbScale
 70
     0
300
1:20
140
1.0
141
20.0
290
     0
  0
SCALE
  5
50
102
{ACAD_REACTORS
330
47
102
}
330
47
100
AcDbScale
 70
     0
300
1:30
140
1.0
141
30.0
290
     0
  0
SCALE
  5
51
102
{ACAD_REACTORS
330
47
102
}
330
47
100
AcDbScale
 70
     0
300
1:40
140
1.0
141
40.0
290
     0
  0
SCALE
  5
52
102
{ACAD_REACTORS
330
47
102
}
330
47
100
AcDbScale
 70
     0
300
1:50
140
1.0
141
50.0
290
     0
  0
SCALE
  5
53
102
{ACAD_REACTORS
330
47
102
}
330
47
100
AcDbScale
 70
     0
300
1:100
140
1.0
141
100.0
290
     0
  0
SCALE
  5
54
102
{ACAD_REACTORS
330
47
102
}
330
47
100
AcDbScale
 70
     0
300
2:1
140
2.0
141
1.0
290
     0
  0
SCALE
  5
55
102
{ACAD_REACTORS
330
47
102
}
330
47
100
AcDbScale
 70
     0
300
4:1
140
4.0
141
1.0
290
     0
  0
SCALE
  5
56
102
{ACAD_REACTORS
330
47
102
}
330
47
100
AcDbScale
 70
     0
300
8:1
140
8.0
141
1.0
290
     0
  0
SCALE
  5
57
102
{ACAD_REACTORS
330
47
102
}
330
47
100
AcDbScale
 70
     0
300
10:1
140
10.0
141
1.0
290
     0
  0
SCALE
  5
58
102
{ACAD_REACTORS
330
47
102
}
330
47
100
AcDbScale
 70
     0
300
100:1
140
100.0
141
1.0
290
     0
  0
SCALE
  5
59
102
{ACAD_REACTORS
330
47
102
}
330
47
100
AcDbScale
 70
     0
300
1/128" = 1'-0"
140
0.0078125
141
12.0
290
     0
  0
SCALE
  5
5A
102
{ACAD_REACTORS
330
47
102
}
330
47
100
AcDbScale
 70
     0
300
1/64" = 1'-0"
140
0.015625
141
12.0
290
     0
  0
SCALE
  5
5B
102
{ACAD_REACTORS
330
47
102
}
330
47
100
AcDbScale
 70
     0
300
1/32" = 1'-0"
140
0.03125
141
12.0
290
     0
  0
SCALE
  5
5C
102
{ACAD_REACTORS
330
47
102
}
330
47
100
AcDbScale
 70
     0
300
1/16" = 1'-0"
140
0.0625
141
12.0
290
     0
  0
SCALE
  5
5D
102
{ACAD_REACTORS
330
47
102
}
330
47
100
AcDbScale
 70
     0
300
3/32" = 1'-0"
140
0.09375
141
12.0
290
     0
  0
SCALE
  5
5E
102
{ACAD_REACTORS
330
47
102
}
330
47
100
AcDbScale
 70
     0
300
1/8" = 1'-0"
140
0.125
141
12.0
290
     0
  0
SCALE
  5
5F
102
{ACAD_REACTORS
330
47
102
}
330
47
100
AcDbScale
 70
     0
300
3/16" = 1'-0"
140
0.1875
141
12.0
290
     0
  0
SCALE
  5
60
102
{ACAD_REACTORS
330
47
102
}
330
47
100
AcDbScale
 70
     0
300
1/4" = 1'-0"
140
0.25
141
12.0
290
     0
  0
SCALE
  5
61
102
{ACAD_REACTORS
330
47
102
}
330
47
100
AcDbScale
 70
     0
300
3/8" = 1'-0"
140
0.375
141
12.0
290
     0
  0
SCALE
  5
62
102
{ACAD_REACTORS
330
47
102
}
330
47
100
AcDbScale
 70
     0
300
1/2" = 1'-0"
140
0.5
141
12.0
290
     0
  0
SCALE
  5
63
102
{ACAD_REACTORS
330
47
102
}
330
47
100
AcDbScale
 70
     0
300
3/4" = 1'-0"
140
0.75
141
12.0
290
     0
  0
SCALE
  5
64
102
{ACAD_REACTORS
330
47
102
}
330
47
100
AcDbScale
 70
     0
300
1" = 1'-0"
140
1.0
141
12.0
290
     0
  0
SCALE
  5
65
102
{ACAD_REACTORS
330
47
102
}
330
47
100
AcDbScale
 70
     0
300
1-1/2" = 1'-0"
140
1.5
141
12.0
290
     0
  0
SCALE
  5
66
102
{ACAD_REACTORS
330
47
102
}
330
47
100
AcDbScale
 70
     0
300
3" = 1'-0"
140
3.0
141
12.0
290
     0
  0
SCALE
  5
67
102
{ACAD_REACTORS
330
47
102
}
330
47
100
AcDbScale
 70
     0
300
6" = 1'-0"
140
6.0
141
12.0
290
     0
  0
SCALE
  5
68
102
{ACAD_REACTORS
330
47
102
}
330
47
100
AcDbScale
 70
     0
300
1'-0" = 1'-0"
140
12.0
141
12.0
290
     0
  0
ENDSEC
  0
EOF
